26мая

Green Hell

|
Комментарии (0)
                     Bass Tabs for
                       Green Hell
    As performed on Garage Days Re-revisited
                      By Metallica
                  Original: The Misfits
Though most of the songs on Garage Days Re-revisited are
tuned down a step (at least on E), this one isn't.
26мая

Green Hell

|
Комментарии (0)
I have included lyrics at the end with where to play each riff in the lyrics.
Also a couple of notes...I don't know if they play chords of just the notes.
I wrote it the way I thought it sounded. There is full tabulature info at the
end of this tab, too, if you don't understand how the rythms are written. Well,
that's all. Have fun!
26мая

Run to the Hills

|
Комментарии (0)
RUN TO THE HILLS (Iron Maiden) - (Metallica Cover)
Drum Tablature W3DTS 
(MAIN)
T1:----------3--:
BA:--2-2-2-3----:
OH:--2-2-2-2----: moderate (x7)
26мая

Run to the Hills

|
Комментарии (0)
Bass tablature for
Run to the Hills
written by Iron Maiden
performed on Garage Days (out of tune)
By Metallica
26мая

Run to the Hills

|
Комментарии (0)
Run to the Hills
written by Iron Maiden
performed on Garage Days (out of tune)
26мая

Run to the Hills

|
Комментарии (0)
Run to the Hills
written by Iron Maiden
performed on Garage Days (out of tune)
26мая

Blackened

|
Комментарии (0)
"BLACKENED"            METALLICA
                   ...AND JUSTICE FOR ALL
                                                 from:  keith rogers
INTRO         *backwards bass guitar
|--------------------------------------------------------------------|
|--------------------------------------------------------------------|
|--------------------7------------------------------------7----------|
|---7--------8-------0--------7--------8--------10--------0----------|
|--------------------------------------------------------------------|
|--------------------------------------------------------------------|
|-9--10-----------------------7----------------------------------7---|
|--------7--8---------10------0--------7-------8-------10--------0---|
26мая

Blackened

|
Комментарии (0)
Blackened
Written by: Hetfield and Ulrich
as performed on ...And Justice For All
26мая

And Justice For All

|
Комментарии (0)
...And Justice For All - DRUMS
written by Hetfield and Ulrich
as performed on ...And Justice For All
26мая

...And Justice for All

|
Комментарии (0)
...And Justice For All
written by: Hetfield, Ulrich and Hammett
as performed on ...And Justice for All
Рекомендуем

  • Опрос
    На что вы больше обращаете внимание в песне?
    Музыка
    Слова
    Важно сочетание