26мая

The god That Failed

|
Комментарии (0)
The god That Failed
written by Hetfield and Ulrich
as performed on 
tab by Dorthy St.Claire; dorfunkle@hotmail.com
26мая

The god That Failed

|
Комментарии (0)
The god That Failed
written by Hetfield and Ulrich
as performed on Metallica
tab by Phil Boyle; phil@encycmet.com
26мая

My Friend of Misery

|
Комментарии (0)
My Friend of Misery
written by Hetfield, and Ulrich
as performed on Metallica
tab by James Lamont
26мая

My Friend of Misery

|
Комментарии (0)
My Friend of Misery
written by Hetfield and Ulrich
as performed on Metallica
tab by Chris Binding
26мая

My Friend of Misery

|
Комментарии (0)
My Friend of Misery
by: Hetfield Ulrich and Newstead
as performed on Metallica
tab by Phil Boyle; phil@encycmet.com
26мая

The Struggle Within

|
Комментарии (0)
The Struggle Within
--- -------- ------
Metallica
from the black album
144 bpm
(4/4)
    (drums)
       4                                    (play 3 times)
|-------------||---------|---------|---------|-----------||
|-------------||o--------|---------|---------|----------o||
|-------------||o-7------|-(7)-----|-(7)-----|-5--------o||
|-------------||--0------|-(0)-----|-(0)-----|-------7---||
26мая

The Struggle Within

|
Комментарии (0)
The Struggle Within
written by Hetfield and Ulrich
as performed on Metallica
tab by Phil Boyle; phil@encycmet.com
26мая

Ain't My Bitch

|
Комментарии (0)
"AIN'T MY BITCH"         METALLICA-LOAD
|-----------------------------------------------------------|
|-----------------------------------------------------------|
|-----------------------------------------------------------|
|-0-0-(0)-0-3---0-0----------------------0-0-(0)-0-0-3---0--|
26мая

Ain't My Bitch

|
Комментарии (0)
Ain't My Bitch
written by Hetfield and Ulrich
as performed on Load
26мая

2X4

|
Комментарии (0)
2X4 (Hetfield/Ulrich/Hammett)
Drum Tablature 
(INTRO ROLL)
FT:------------------------------------2-2--------:
T2:-----------------------2-2------------------3--:
T1:----------2-2------------------------------3---:
SN:--2-2-2--2-----2-2-2--2-----2-2-2--2------3----: moderate
Рекомендуем

  • Опрос
    Где вы чаще всего слушаете радио?
    Дома
    За рулем
    На улице
    На работе (в школе, ВУЗе, колледже)
    Вообще не слушаю