25мая

Stairway to Heaven

|
Комментарии (0)
Stairway to Heaven
written by Led Zepplin
as performed by James Hetfield on A Year and a Half...
tab by Jonas Ohlsson;

Play with fingers
E-------5-7-----7-|-8-----8-2-----2-|-0---------0-----|-----------------|
B-----5-----5-----|---5-------3-----|---1---1-----1---|-0-1-1-----------|
G---5---------5---|-----5-------2---|-----2---------2-|-0-2-2-----------|
D-7-------6-------|-5-------4-------|-3---------------|-----------------|
A-----------------|-----------------|-----------------|-2-0-0---0--/8-7-|
E-----------------|-----------------|-----------------|-----------------|
 
E---------7-----7-|-8-----8-2-----2-|-0---------0-----|-----------------|
B-------5---5-----|---5-------3-----|---1---1-----1---|-0-1-1-----------|
G-----5-------5---|-----5-------2---|-----2---------2-|-0-2-2-----------|
D---7-----6-------|-5-------4-------|-3---------------|-----------------|
A-0---------------|-----------------|-----------------|-2-0-0-------0-2-|
E-----------------|-----------------|-----------------|-----------------|
 
E-------0-2-----2-|-0-----0----------|---------3-----3-|
B-----------3-----|---1-----0h1------|-1-----1---0-----|
G-----0-------2---|-----2-------2----|---0---------0---|
D---2-----0-------|-3----------------|-----2-----------|
A-3---------------|---------0----0-2-|-3---------------|
E-----------------|------------------|---------3-------|
Комментариев пока еще нет.

Добавить комментарий!

Рекомендуем

  • Опрос
    Какую музыку вы любите?
    Поп музыка
    Альтернатива
    Электронная
    Хип-хоп, R n B или Рэп
    Джаз, Блюз
    Классика
    Метал
    Рок
    Шансон
    Транс