25мая

Sucking My Love

|
Комментарии (0)
Sucking My Love
written by Diamond Head
as performed on March 1982 demos (with Mustaine and McGovney)
tab by Phil Boyle; phil@encycmet.com

1)
D--12-9----------------5-4-5-----7-6-7
A--10-7-0-0-7-5-7~-0-0-3-2-3-0-0-5-4-5
E-------------------------------------
       pm..        ...       ...
intro

2)
D------5------------------
A--------7-----5h7-----5-7
E--0-0-----0-0-----0-5----
                  pm......
verse riff

3)
D------5-----7-----5-2-5-7
A------3-----5-----3-0-3-5
E--0-0---0-0---0-0--------
  pm..   ...   ...
mid-verse
In the version I have there is no rythm guitar under the solo.
But after the solo it comes in with this.

4)
D--9\7---------9
A--7\5-9\7-7\5-7
E------7\5-5\3-0
post solo

5)
D----------------3----------------2
A--------0-1-0---3--------0-1-0---2
E--0-2-3-------3-1--0-2-3-------3-0
post-post solo
then it goes back into the verse riff
Комментариев пока еще нет.

Добавить комментарий!

Рекомендуем

  • Опрос
    Какую музыку вы любите?
    Поп музыка
    Альтернатива
    Электронная
    Хип-хоп, R n B или Рэп
    Джаз, Блюз
    Классика
    Метал
    Рок
    Шансон
    Транс