25мая

Twist of Cain

|
Комментарии (0)
Twist of Cain
written by Danzig
as performed live by Metallica
tab by John Flaherty; Blind2345@aol.com

 Danzig "Twist of Cain"                                verse riff             
------------------------------------------------------------------------------
------------------------------------------------------------------------------
-------------------------------------------------8-8-8------------------------
-------------------------------------------------8-8-8------------------------
--6--7-0-6-0-3-0-0-7-0-6-0-3-0-0-7-7-0-6-0-3-0-0-6-6-6---7-7-7-10-10-10-10-10-
-------------------------------------------------6-6-6---5-5-5--8--8--8--8--8-
                         chorus riff                                          
------------------------------------------------------------------------------
------------------------------------------------------------------------------
---------------------------2-------------8------------------------------------
---------------------------2-------------8----------7-7-7---------------------
-7-7-7-10-10-10-10---------0--3b-0----0--6--3-3-3-0-5-5-5---------------------
-5-5-5--8--8--8--8--15\------------3b----6------------------------------------
Комментариев пока еще нет.

Добавить комментарий!

Рекомендуем

  • Опрос
    Какую музыку вы любите?
    Поп музыка
    Альтернатива
    Электронная
    Хип-хоп, R n B или Рэп
    Джаз, Блюз
    Классика
    Метал
    Рок
    Шансон
    Транс