26мая

Motorbreath

|
Комментарии (0)
Motorbreath
written by Hetfield
as performed on Kill 'Em All

Drum fill intro
1)
D-------
A--5-7-9
E--3-5-7

2)
D------------------
A------------------  (play notes in this pattern)
E--7----3----5----2   -x--x-x-x--x-x-x--x-x-x-x-

3)
D--------------------------------------------
A--9-9-7/9-9--5-5-4/5-5--7-7-5/7-7--4-4---4-4
E--7-7-5/7-7--3-3-2/3-3--5-5-3/5-5--2-2-0/2-2
pm...........................................
verse riff

4)
D--4-4-2-4-4-2-4-4-2-4
A--2-2-0-2-2-0-2-2-0-2
E---------------------

5)
D--------------7-7----------------------------
A--9-9---5-5---5-5---4-4---5-5---2-2---4-4-4-4
E--7-7-0-3-3-0-----0-2-2-0-3-3-0-0-0-0-2-2-2-2
pm............................................
Motorbreath it's how...

6)
D--4-2---4-2----4-2---4-2---4-2
A------2-----2------2-----2----  
E------------------------------  

7)
D--2-4-6
A--0-2-4
E-------
before solo

8)
D--6----------------6--6----------------6-----
A--4--4-4-4-4-4-4-4-4--4--4-4-4-4-4-4-4-4--6-6
E------------------------------------------4-4
solo riff

9)
D---------
A--11-10-9
E--9--8--7
after solo
Комментариев пока еще нет.

Добавить комментарий!

Рекомендуем

  • Опрос
    Какую музыку вы любите?
    Поп музыка
    Альтернатива
    Электронная
    Хип-хоп, R n B или Рэп
    Джаз, Блюз
    Классика
    Метал
    Рок
    Шансон
    Транс