26мая

For Whom the Bell Tolls

|
Комментарии (0)
For Whom the Bell Tolls
written by Hetfield, Burton and Ulrich
as performed on Ride the Lightning
tab by Ilan Galiani; lhdalia@weizmann.weizmann.ac.il

Intro
G+-----19-18-17-16--19p16-------------+---------19------------------------+
D|*-----------------------------------|---17-16------------R------R------*|
A|*-----------------------------------|------------17--------------------*|
E+---0--------------------------------+----------------2-2----2-2---------|
 
G+------------------------------------+-----------------------------------+
D|*-----------------------------------|-----------------------------------|
A|*-----------------------------------|-------------------0---------------|
E+----0-3-2-1--0-3-2-1----------------+----0-3-2-1--0-2-3-----------------|
  
G+------------------------------------+-----------------------------------+
D|------------------------------------|----------------------------------*|
A|------------------------------------|-------------------2--------------*|
E+----0-3-2-1--0-3-2-1----------------+----0-3-2-1--0-2-3-----------------|
 
G+------------------------------------+-----------------------------------+
D|------------------------------------|-----------------------------------|
A|------------------------------------|-----------------------------------|
E+----0-------------------------------+-----(0)---------------------------|
Verse
G+------------------------------------+------------------------------------+
D|*-----------------------------------|------------------------------------|
A|*-----------------------------------|------------------------------------|
E+----0--0-0-0--0--0-0-0--------------+----0--0-0-0--0--0-0-0--------------+
G+------------------------------------+-----------------------------------+
D|------------------------------------|-------R---------------------------|
A|------------------------------------|-----------------------------------|
E+----3--3-3-3--3--3-3-3--------------+----3-----12\----------------------|
G+------------------------------------+------------------------------------+
D|------------------------------------|------------------------------------|
A|------------------------------------|------------------------------------|
E+----0--0-0-0--0--0-0-0--------------+----0--0-0-0--0--0-0-0--------------+
G+------------------------------------+-----------------------------------+
D|------------------------------------|----------------------------------*|
A|------------------------------------|----3--3-3-3--0--0-0-0------------*|
E+----3--3-3-3--3--3-3-3--------------+-----------------------------------|
Chorus
G+------------------------------------+------------------------------------+
D|*-----------------------------------|------------------------------------|
A|*-----------------------------------|------------------------------------|
E+----0-0-0--3--0-0-0--5--------------+----0-0-0--3-0-6-2------------------+
G+------------------------------------+------------------------------------+
D|------------------------------------|-----------------------------------*|
A|------------------------------------|-----------------------------------*|
E+----0-0-0--3--0-0-0--5--------------+----0-0-0--3-0-0--6-2-1-------------+

 Outro
G+------------------+------------------+-+----------------+
D|*-----------------|------------------|2|---------------*|
A|*-----------------|------------------|4|---------------*|
E+----0---2-2-------+----0--2-2--------+-+----3-3---------+
Комментариев пока еще нет.

Добавить комментарий!

Рекомендуем

  • Опрос
    Где вы чаще всего слушаете радио?
    Дома
    За рулем
    На улице
    На работе (в школе, ВУЗе, колледже)
    Вообще не слушаю