26мая

Trapped Under Ice

|
Комментарии (0)
Trapped Under Ice 
-----------------
Metallica
from the album: Ride the Lightning
 
120 bpm 
(4/4)
Intro (Guitar)3X
||---------||     ||----------------||
||----R----||     ||----------------||
||---------||     ||-2-2-2-2-2--R---||
||---------||     ||----------------||
Double Time Feel
                                       (play 8 times) 
||------------------------------|--------------------||
||o-----------------------------|-------------------o||
||o-----5---7-------------------|-----5---7-5-8-8-8-o||
||--0-0---0---0-0-0-0-0-0-0-0-0-|-0-0---0------------||

 
bass fig.1 (play 3 times)                             end bass fig.1
||----------------------------------|-----------------------------||
||o---------------------------------|----------------------------o||
||o---------------------------------|-----------------3--2--0--2-o||
||--0-2-2-2-2-2-2-2-0-2-2-2-2-2-2-2-|-0-2-2-2-2-2-2-2-------------||
     H               H                 H

||---------------------------------|----------------------------||
||---------------------------------|----------------------------||
||---------------------------------|-----------------2-2-2-2--3-||
||-0-2-2-2-2-2-2-2-0-2-2-2-2-2-2-2-|-0-2-2-2-2-2-2-2------------||
    H               H                 H

1st, 2nd, 3rd verses w/ bass fig.1 (4 times)

Chorus
  Bass fig.2
||----------------|----------------|-----------------|-----------------|
||----------------|----------------|-----------------|-----------------|
||----------------|----------------|-----------------|-----------------|
||-4--5--0-4--5--0|-4--5--0--0-0--0|-4--5--0-4--5--0-|-4--5--0--0-5-5-0|
                                  end bass fig. 2
|---------------|----------------|---------------|-----------------|
|---------------|----------------|---------------|-----------------|
|---------------|----------------|---------------|-----------------|
|-2-3--0-2-3--0-|-2-3--0--0-3-3-0|-4--5--0-4-5--0|--5--6---5--5----|
 _________________________
|1.                        ||
|  w/ Bass fig.1 (4 times) ||
|                          ||
|                          ||

 _________________________
|2.
|--------------|-------------|-----------------||
|--------------|-------------|-----------------||
|--------------|-------------|-----------------||
|-5-6--5-6-6---|-3-3---5-5---|-1-1-1-1-1-1-1-1-||

Bass fig.3
||----------------------|-----------------|
||o---------------------|---------3-2-----|
||o---------------------|-3-2---------3-2-|
||--0--0-0-0--3-----3-0-|-----5-4---------|
                                     (end bass fig.3)
|--------------------|-----------------------------||
|--------------------|----------------------------o||
|-----------7-----5--|----------------------------o||
|-0--0-0-0------0----|-6--6-6-6--6-6-6--6-6-6--6-6-||
  bass fig.4                                              end bass fig.4
||-------------------|------------------|----------------|--------------||
||o------------------|------------------|----------------|-------------o||
||o-7--7--7----------|-5--5--5----------|-3--3--2--------|-------------o||
||-------------------|------------------|------------3-2-|-0------------||
Bridge w/ Bass fig.4 (2 times)
then continue w/ Bass fig.3 (4 times)
||-----------------------------|-----------------------------|
||-----------------------------|-----------------------------|
||-----------------------------|-----------------------------|
||-6--6-6-6--6-6-6--6-6-6--6-6-|-5--5-5-5--5-5-5--5-5-5--5-5-|
|-----------------------------|---------------------------------|
|-----------------------------|---------------------------------|
|-----------------------------|---------------------------------|
|-5--5-5-5--5-5-5--5-5-5--5-5-|-5-5-5-5-5-5-5-5-5-5-5-5-5-5-5-5-|
|-----------------||
|---------3-2-----||
|-3-2---------3-2-||
|-----5-4---------||

Guitar solo w/ Bass fig.1 (4 times)
then continue w/ Bass fig.2
|------------------------------|---------------------------|
|------------------------------|---------------------------|
|------------------------------|---------------------------|
|-5--6----5--5--5--5-5-5-5-5-5-|-5--6----5--5--5-5-5-5-5-5-|
||------------------------------|--------------------|-----------------||
||------------------------------|--------------------|-----------------||
||------------------------------|--------------------|-----------------||
||-5--6----5--5--5--5-5-5-5-5-5-|-5--6----5--6--6----|-3--3----5--5----||
Bass fig.1 (3 times)
||---------------------------------|----------------|
||---------------------------------|----------------|
||-----------------2---2---2-------|----------------|
||-0-2-2-2-2-2-2-2-----------------|-2--------------|
Комментариев пока еще нет.

Добавить комментарий!

Рекомендуем

  • Опрос
    Вы играете на гитаре?
    Да, очень хорошо
    Да, но есть чему поучиться
    Да, неплохо
    Пока не очень
    Нет