26мая

Escape

|
Комментарии (0)
Escape
------
Bass Tab
Metallica
from the album: Ride the Lightning

144 bpm
(4/4)
Intro - Play 3 times
||---------------------|-------------------------||
||o--------------^-----|------------------------o||
||o-------------5-7--5-|(5)--------5-7-5--------o||
||--5-5-5-5-5-5--------|--------8---------8--7---||
||--------------------|--------------------||
||--------------^-----|--------------------||
||-------------5-7--5-|(5)--------5--8--8--||
||-5-5-5-5-5-5--------|--------8-----------||

  Play 4 times
||---------------------||
||--------------------o||
||o-0-0-0-0-0-0-0-5^7-o||
||---------------------||

||--------------------|-----------------|-------------------|--------------||
||o---------------5^7-|-----------------|---------------5^7-|---------875-o||
||o-0-0-0-0-0-0-0-----|-0-0-0-0-6-5-3-5-|-0-0-0-0-0-0-0-----|-0-0-0-0----7o||
||--------------------|-----------------|-------------------|--------------||
1st, 2nd verses
  Bass fig.1
||-----------------|------------------|-----------------|
||-----------------|------------------|-----------------|
||-----------------|------------------|-----------------|
||-2-2-2-2-2-2-2-2-|-2-2-2-2-2-2-2-33-|-33-2-2-2-2-2-2-2|

|------------------|------------------|----------------|
|------------------|------------------|----------------|
|------------------|------------------|----------------|
|-2-2-2-2-2-2-2-33-|-33-2-2-2-2-2-2-2-|-2-2-2-2-2-2-33-|
                         end Bass fig.1
|------------------|-------------------||
|------------------|-------------------||
|------------------|-------------------||
|-33-2-2-2-2-2-2-2-|-2---3---x-0---x-1-||
Repeat Bass fig.1

Chorus                                                Play 4 times
  Bass fig.2                                        (end bass fig.2)
||------------|---------------|------------------|----------------2-|
||------------|---------------|------------------|--------------4---|
||-0--0--0--0-|-0--0--0---0---|------------------|------------4-----|
||------------|---------0---3-|(3)---3---3-0-3-2-|(2)---2---2-------|
||--------------------|-----------------|-------------------|--------------||
||o---------------5^7-|-----------------|---------------5^7-|---------875-o||
||o-0-0-0-0-0-0-0-----|-0-0-0-0-6-5-3-5-|-0-0-0-0-0-0-0-----|-0-0-0-0----7o||
||--------------------|-----------------|-------------------|--------------||
Play Bass fig.1 (2 times)
Play Bass fig.2 (3 times)
||------------|---------------|------------------|--------------||
||------------|---------------|------------------|--------------||
||-0--0--0--0-|-0--0--0---0---|------------------|--------------||
||------------|---------0---3-|(3)---3---3-0-3-2-|(2)--2--2--2--||

||-----------------------|-----------------------|
||o-------4--------------|-------4--------------o|
||o----4-----2--0--------|----4-----0-----------o|
||--2--------------------|-2-----------3---------|
Bridge (half time feel)
||--------------|-------------|-------------|-------------||
||o-------------|-------------|-------------|------------o||
||o-------2--0--|-------------|-------2--0--|------------o||
||--2--2--------|-2--2--3--3--|-2--2--------|-0--0--3--3--||
||----------4--------------|----------2--------------|
||-------4-----------------|-------4-----------------|
||----4--------0--0--0--0--|----4--------------------|
||-2-----------------------|-2-----------3--3--3--3--|
|----------2--------------------------||
|-------4-----------------------------||
|----4--------------------------------||
|-2-----------1--1--1--1--1--1--1--1--||
Guitar solo
||------------------|-----------------|-----------------|
||o-----------------|-----------------|-----------------|
||o-----------------|---------6-5-3-5-|-----------------|
||--0-0-0-0-0-0-0-0-|-0-0-0-0---------|-0-0-0-0-0-0-0-0-|
 ___________________
|1.
|------------------||
|---------8-7-5---o||
|---------------7-o||
|-0-0-0-0----------||
 ___________________
|2.
|-----------------||
|-----------------||
|---------6-5-3-5-||
|-0-0-0-0---------||
                             play 3 times
||-------------------|-------------------|
||o------------------|------------------o|
||o------------------|------------------o|
||--0-2-2-0-2----0-0-|-0-2-2-0-0-3--3----|
||-------------------||
||-------------------||
||-------------------||
||-0-2-2-0-2-3-------||
  (play 5 times) 
||-------------||
||o-----------o||
||o-----------o||
||--0----0-----||
||--------------------------||
||--------------------------||
||-7--7-7-7--7--7--7-7-7--7-||
||--------------------------||
  (play until end & fade)
||------------------|------------------||
||o-----------------|-----------------o||
||o-----------------|---------6-5-3-5-o||
||--0-0-0-0-0-0-0-0-|-0-0-0-0----------||
Комментариев пока еще нет.

Добавить комментарий!

Рекомендуем

  • Опрос
    Сколько часов в день вы слушаете музыку?
    1-3 часа
    3-5 часа
    более 5 часов
    сутки напролет
    я не слушаю музыку