26мая

Battery

|
Комментарии (0)
Battery
-------
Metallica
from the album: Master of Puppets
75 bpm
(4/4)
Intro
    (12)
||--------||
||--------||
||----r---||
||--------||
||---------------|--------------|--------------|-----------------------||
||o--------------|--------------|--------------|----------------------o||
||o--------------|--------------|--------------|----------------------o||
||--0---0-0-1----|-2---2-2-3----|-0---0-0-1----|-2---2-2-3---3--3-1-0--||
||-------------|------------||
||-------------|------------||
||----2--------|------------||
||-0-----3--2--|0-----------||
     (3)
||---------||  ||-----------------|--------------|--------------|
||---------||  ||-----------------|--------------|------r-------|
||----r----||  ||-----------------|--------------|--------------|
||---------||  ||-0---------6-6-5-|-0------------|--------------|
|---------------||
|---------------||
|---------------||
|-6-5--5--5---5-||
||--------------------------|------------------------|----------------------|
||o-------------------------|------------------5-5-4-|-5--------------------|
||o-------------------------|------------------------|----------------------|
||--0--0-0-0--0-0-0-6--6--5-|-0--0-0-0--0-0-0--------|---0-0-0--0-0-0--6-5-5|
 __________________
|1.
  |----------------||
  |---------------o||
  |---------------o||
  |-0-2--3-0-3--4--||
 __________________
|2.
  |--------------|----------------------|----------------------|
  |--------------|----------------------|------5-5--------5--5-|
  |--------------|------7-7--------7--7-|----------------------|
  |-6-5--5--5--5-|-0--------0--0-0------|-3--------3--3-3------|
  |----------------||
  |------7-7-------||
  |--------------6-||
  |-5-5------1-0---||

verses
  Bass fig.1
||----------------------|-----------------------|------------------------|
||o---------------------|-----------------5-5-4-|-5----------------------|
||o-7------7---7--------|-7------7------7-------|--------7------7--------|
||-----0-0---0---6-6--5-|----0-0----0-0---------|----0-0----0-0----6-6-5-|
  (end Bass fig.1)
|------------------||
|-----------------o||
|-----------------o||
|-0--2--3-0-3--4---||
  Bass fig.2
||----------------------|----------------------|---------------|
||----------------------|-----5------------5-5-|-----7-7-------|
||---------7--------7-7-|----------------------|---------7-7-6-|
||-0------------0-0-----|-3-3----2-2-3-3-3-----|-5-5-----------|
|---------------------|---------------------|---------------------|
|---------------------|---------------5-5-4-|-5-------------------|
|-7-----7-----7-------|-7-----7-----7-------|-------7-----7-------|
|---0-0---0-0---6-6-5-|---0-0---0-0---------|---0-0---0-0---6-6-5-|
|----------------|------------------|-------------------|-----------------|
|----------------|------------------|---5-5---------5-5-|-----------------|
|----------------|-------7--------7-|-------------------|---------7-7-6---|
|-0--2--3-0-3--4-|-0--------0-0-0---|-3-------3-3-3-----|-5-5-5-5---------|
|---------------------|---------------------|----------------|-------------|
|---------------------|---------------5-5-4-|--------------5-|-------------|
|-7-----7-----7-------|-7-----7-----7-------|-----7----------|----2------6-|
|---0-0---0-0---6-6-5-|---0-0---0-0---------|-0--------7-----|-3------0----|
|-------------------------|----------------------|---------------------|
|---------------------8---|----------------------|---------------5-5-4-|
|-7-----7-----7---------8-|--7-----7-----7-------|-7-----7-----7-------|
|---0-0---0-0---6-6-5-----|----0-0---0-0---6-6-5-|---0-0---0-0---------|
      (end Bass fig.2)         
|---------------------|
|-5-------------------|
|-------7-----7-------|
|---0-0---0-0---6-6-5-|
 ______________________
|1.
|------------|-------------|-------------|------------------||
|------------|-------------|-----5-----5-|-----------------o||
|-1----------|-----7-----7-|-------------|---------------6-o||
|----1--0----|-0-0---0-0---|-3-3---3-3---|-5-5-5-5-5-3-0----||
For verse two:
Play Bass fig.1
Play Bass fig.2 w/ number two ending
 ___________________
|2.
|-------------|--------||
|-------------|--------||
|-1-----------|--------||
|----1--0-----|-0------||
Interlude
||--------------|-----------------|----------------|---------------|
||--------------|-----------------|--------5-------|-5-----5-------|
||--------7-----|---------7---7---|----------------|-------------2-|
||-0--0-0-----0-|-0--0-0----0---0-|-3--3-3---3-3-3-|---3-----0-0---|
|------------------|--------------------|------------------|--------------||
|------------------|--------------------|----------5-------|-5----5-------||
|--------7-----7---|-----------7----7---|------------------|------------2-||
|-0--0-0---0-0---0-|-0------0----0----0-|-3------3---3-3-3-|---3----0-0---||

                                                          (play 3 times)
||-----------------|-----------------|-----------------|----------------||
||o----------------|-----------------|-----------------|---4-5-7-8-8-9-o||
||o--------7-----7-|-----7-7---------|---------------7-|-7-------------o||
||--0--0-0---0-0---|-0-0-----8-8-7-7-|-3----3-3-3-0----|----------------||
||----------------|-------------|--------|--------|----------------||
||----------------|-------------|--------|--------|----------------||
||--------7-----7-|-----------3-|--------|--------|----------------||
||-0--0-0---0-0---|-0----3------|-3------|(3)-----|-6--5--5--5--5--||
Guitar solo
||-----------------------|-------------------|----------------------|
||o----------------------|-------------------|----------------------|
||o-7------7-----7-------|-------------------|-7------7-----7-------|
||-----0-0---0-0---6-6-5-|-0--6-6-5-0--6-6-5-|----0-0---0-0---6-6-5-|
|------------------|----------------------|-----------------|
|------------------|----------------------|-----------------|
|------------------|-7------7-----7-------|-----------------|
|-0--6-6-5-0-3-3-1-|----0-0---0-0---6-6-5-|-0-6-6-5-0-6-6-5-|
|----------------||
|---------------o||
|---------------o||
|-6--5--5--5--5--||
||-----------------|------------------|-----------------|------------------|
||-----------------|-----5--5-----5-5-|-----------------|-----4-4------4-4-|
||----7--------7---|------------------|-----------------|------------------|
||-0-----0-0-0---0-|-3-3------3-3-----|-5---5-5-5-0-0-5-|-2-2-------2-2----|
|---------------------|-----------------|---------|---------||
|---------------------|-----5-5-----5-5-|---------|---------||
|-----7----------7--7-|-----------------|---------|---------||
|-0-----0-0--0-0------|-3-3-----3-3-----|-0-------|-------2-||

                                     (play 4 times)
||--------------------------|----------------------||
||o-------------------------|---------------------o||
||o-------------------------|---------------------o||
||--1-(0)-6-(0)-7-(0)-6-(0)-|-7-(0)-6-(0)-7-(0)-2--||
||-----------|---------------||
||-----------|---------------||
||-----------|-------------6-||
||-1---------|---------1-1---||
For third verse:
Play Bass fig.1
Play Bass fig.2 w/ number 3 ending
 _______________
|3.
|----------|---------------------|---------------------|--------------------|
|----------|---------------------|---------------5-5-4-|--------------------|
|---1------|-7-----7-----7-------|-7-----7-----7-------|-7---7---7------1---|
|-------1--|---0-0---0-0---6-6-5-|---0-0---0-0---------|--0-0-0-0-6-6-5---1-|
|---------------------|---------------------|---------------------|---------|
|---------------------|---------------5-5-4-|-5-------------------|---------|
|-7-----7-----7-------|-7-----7-----7-------|-------7-----7-------|-1-------|
|---0-0---0-0---6-6-5-|---0-0---0-0---------|---0-0---0-0---6-6-5-|----1--0-|
                                     (play 7 times)
||--------------------------|----------------------||
||o-------------------------|---------------------o||
||o-------------------------|---------------------o||
||--1-(0)-6-(0)-7-(0)-6-(0)-|-7-(0)-6-(0)-7-(0)-2--||
|----------------------|--------|--------|--------------|--------||
|----------------------|--------|--------|--------------|--------||
|----------------------|--------|--------|--------------|--------||
|-1--6-(0)-7-(0)-6-(0)-|-7------|-(7)----|-2-1--1--1--1-|-0------||

 

Комментариев пока еще нет.

Добавить комментарий!

Рекомендуем

  • Опрос
    Какую музыку вы любите?
    Поп музыка
    Альтернатива
    Электронная
    Хип-хоп, R n B или Рэп
    Джаз, Блюз
    Классика
    Метал
    Рок
    Шансон
    Транс