26мая

Master of Puppets

|
Комментарии (0)
Master of Puppets
written by: Hetfield, Ulrich, Burton, Hammett
as performed on Master of Puppets
                                                     I think that this
G |----------------|---------------|---------------|.---------------|
D |----------------|---------------|---------------|.---------------|
A |7---------------|5---4---3------|---------------|-----7-----6----|
E |----------------|---------------|---------------|-0-0---0-0---0-0|
                     part is just guitar (no bass) but I put it here.
G |-----------------|---------------|----------------.|
D |-----------------|---------------|----------------.|
A |5---4---3--------|---------------|-----------------|
E |-----------------|0-0-7-0-0-6-0-0|5-0-4-0-3-0-2-0--|
G|.----------------|----------------|----------------|----------------.|
D|.----------------|----------------|----------------|----------------.|
A|-----2-----3-----|4-----3-----2-2-|----2-----3-----|-----------------|
E|-0-1---0-1---0-1-|--0-1---0-1-----|0-1---0-1---1-0-|3\2-x-3\2-x-3\2--|
G |.----------------|----------------|----------------|----------------|
D |.----------------|----------------|----------------|----------------|
A |-----2-----3-----|4-----3-----2-2-|----2-----3-----|4-----3-----2---|
E |-0-1---0-1---0-1-|--0-1---0-1-----|0-1---0-1---0-1-|--0-1---1-0-----|
G |----------------|----------------|----------------|----------------.|
D |----------------|----------------|----------------|----------------.|
A |----2-----3-----|4-----3-----2-2-|----2-----3-----|-----------------|
E |0-1---0-1---0-1-|--0-1---0-1-----|0-1---0-1---1-0-|3\2-x-3\2-x-3\2--|
G |----------------|---------------|---------------|.----------------|
D |----------------|---------------|---------------|.----------------|
A |----------------|---------------|---------------|-----------------|
E |3\2-x-3\2-x-3\2-|0--------------|---------------|-0-0-0-0-0-0-0-0-|
G |----------------|----------------|----------.|
D |----------------|----------------|----------.|
A |----------------|----------------|-----------|
E |0-3/5-0-6\5-3/5-|0-0-0-0-0-0-0-0-|0-3/5-3/5--|

G |----------------------|--------------------|
D |------20------20------|20------20------20--|
A |-x-19----x-19----x-19-|---x-19----x-19-----|
E |----------------------|--------------------|
G |.----------------|----------------|----------------|----------.|
D |.----------------|----------------|----------------|----------.|
A |-----------------|--0-2---3\2-0-2-|----------------|--0h2-0h2--|
E |-2-2-2-2-2-2-2-2-|2---------------|2-2-2-2-2-2-2-2-|2----------|
G |----------------|
D |----------------|
A |2-2-2-2-2-2-2-2-|
E |----------------|
                                                                  
Pre-Chorus
G |.----------------|--------------|---------------|----------------.|
D |.----------------|----9---------|---------------|----------------.|
A |-7-------5---7---|7-9---10-9h10-|---------------|--------10-9-----|
E |---0-0-0---------|--------------|8-8-8-8--8-7---|8-8-8-8----------|
                    Mas-ter          Mas-ter         
G |----------------|----------------|----------------|----------------|
D |----------------|----------------|----------------|----------------|
A |9-7-6---6-------|----------------|----------------|----------------|
E |----------8-7---|0---0-----------|1---1-----------|0---------0-0-0-|
G |--------|----------------|----------------|----------------|--------|
D |--------|----------------|----------------|----------------|--------|
A |--------|----------------|----------------|3---------0-0-0-|2-0-0-0-|
E |2p0-0-0-|3---------------|----------------|----------------|--------|
G|---------------|---------------|----------------|--------|------------
D|---------------|---------------|0---------------|--------|------------
A|0--------------|---------------|----------------|3-------|2-----------
E|---------------|---------------|----------3-3-3-|--3-3-3-|------------
                                                       Mas-ter
G |----------------|--------|----------------|--------|----------------|
D |----------------|--------|----------------|--------|----------------|
A |----------------|5-------|3---------------|--------|----------------|
E |0---------0-0-0-|----0-0-|----------------|--------|0---0-----------|
   Mas-ter
G |----------------|----------------|--------|----------------|
D |----------------|----------------|--------|----------------|
A |----------------|----------------|--------|3---------------|
E |1---1-----------|0---------0-0-0-|2p0-0-0-|----------------|
                    Mas-ter          Mas-ter
G |----------------|----------------|----------------|
D |----------------|----------------|----------------|
A |-3--------------|----------------|----------------|
E |----------------|0---0-----------|1---1-----------|
I have no clue how to play the quiet part here.

Then it starts to get heavy again...
G |----------------|----------------|-----------------|----------------|
D |----------------|----------------|-----------------|----------------|
A |----------------|----------------|-----------------|--------------4-|
E |0-0-0-0-0-0-0-0-|0-0-0-0-0-0-0-0-|2-2-3-2-2-2-3----|2-2-3-2-2-2-3---|
G|.----------------|----------------|----------------|----------------.|
D|.----------------|----------------|----------------|----------------.|
A|-----------------|------------2-2-|----------------|------------2----|
E|-0-0-1-0-0-1-0-0-|1-0-0-1-0-0-----|0-0-1-0-0-1-0-0-|1-0-0-1-0-0------|
G |----------------|.----------------|--0-------------|----------------|
D |----------------|.------------0-2-|4---------------|------0---------|
A |----------------|-------0-2-3-----|----3--------3-3|3-2-3---3-2-----|
E |0-0-0-0-0-0-0-0-|-0-2-3-----------|----------------|------------3-2-|
G|----------------.|------------------|--0-------------|----------------
D|----------------.|------------0-2/5-|4---------------|------0---------
A|-----------------|------0-2-3-------|----3--------3-3|3-2-3---3-2-----
E|0-0-0-0-0-0-0-00-|0-2-3-------------|----------------|------------3-2-
G|----------------|------------------|--0-------------|----------------|
D|----------------|------------0-2/5-|4---------------|------0---------|
A|----------------|------0-2-3-------|----3--------3-3|3-2-3---3-2-----|
E|0-0-0-0-0-0-0-00|0-2-3-------------|----------------|------------3-2-|
G|----------------|----------------|
D|----------------|------0---------|
A|-------------3-3|3-2-3---3-2-----|
E|0---------------|------------3-2-|
G |----------------|--------------------|
D |----------------|--------------------|
A |----------------|--------------------|
E |3\2-x-3\2-x-3\2-|---0----------------|
                      let this one ring
Комментариев пока еще нет.

Добавить комментарий!

Рекомендуем

  • Опрос
    Где вы чаще всего слушаете радио?
    Дома
    За рулем
    На улице
    На работе (в школе, ВУЗе, колледже)
    Вообще не слушаю