26мая

The Thing That Should Not Be

|
Комментарии (0)
The Thing That Should Not Be
written by Hetfield, Hammett, Burton and Ulrich
as performed on Master of Puppets
tab by Chris Binding

Bass Fig1
G|---------------------------------|
D|---------------------------------|
A|--------------1-------2-------3--|
E|--0--0--1--2-------2-------2-----|
Bass Fig2
G|----------------------------------------|
D|----------------------------------------|
A|--------------1--------2--------3-------|
E|--0--0--1--2-----1--2-----1--2----0--2--|
Bass Fig3
G|-------------------------------------------------------------------|
D|-------------------------------------------------------------------|
A|-------------------------------------------------------------------|
E|--7-7-7-7-10-7-10---6-3-3-3-6-3-6---7-4-4-4-7-4-7---4-1-1-1-1-1-1--|
Bass Fig4
G|------------|
D|------------|
A|------------|
E|--0--2------|
      Let ring  
Bass Fig5
G|-------------------------------------------------------|
D|-------------------------------------------------------|
A|--0----1-----------------------------------------------|
E|------------5--6--5-6-0-0-0-0-0-0-0-0-0-0-0---5--6--5--|
Bass Fig6
G|--------------------|
D|--------------------|
A|--0----1---------0--|
E|------------1-------|
Bass Fig7
G|-----------------------------------|
D|-----------------------------------|
A|-----------------------------------|
E|--5--6--5-6-0-0-0-0-0-0-0-0-0-0-0--|
Bass Fig8
G|-----------------------------------------------------------------|
D|-----------------------------------------------------------------|
A|-----------0--------0--1-0---1-0--0--------0--3-1-0-1-0--0----1--|
E|--5--6--5-----3--5---------3---------3--5------------------------|
Bass Fig9
G|--------------------------|
D|--------------------------|
A|--0--------0--5-1-0-1--0--|
E|-----3--5-----------------|

 

Комментариев пока еще нет.

Добавить комментарий!

Рекомендуем

  • Опрос
    Сколько часов в день вы слушаете музыку?
    1-3 часа
    3-5 часа
    более 5 часов
    сутки напролет
    я не слушаю музыку