26мая

Welcome Home (Sanitarium)

|
Комментарии (0)
Welcome Home (Sanitarium)
written by: Hetfield, Ulrich and Hammett
as performed on Master of Puppets

2/4 4/4 2/4
|---------|--------|-----|-----------|---------||
|---7--\5-|-(5)--7-|-----|------7--9-|-(9)---7-||
|---------|--------|-7---|-(7)-------|-----7---||
|---------|--------|-----|-----------|---------||

4/4 2/4 4/4 2/4
|-----------|-----------|---------|-----------|-----------|---------|
|-----------|-----------|---------|-----------|-----------|---------|
|------3--3-|-5--5------|---------|------3--3-|-5--5------|---------|
|-0--0------|------5--3-|-(3)-3-5-|-0--0------|------5--3-|-(3)-3-2-|

4/4 2/4 4/4 2/4
|-----------|-----------|---------|-----------|-----------|---------|
|-----------|-----------|---------|-----------|-----------|---------|
|------3--3-|-5--5------|---------|------3--3-|-5--5------|---------|
|-0--0------|------5--3-|-(3)-3-5-|-0--0------|------5--3-|-(3)-3-2-|
q. e q. e q. e q. e + e e q q. e q. e q. e q. e + e e q

4/4 2/4 4/4 2/4
|-----------|-----------|---------|-------------|--------------|-----------||
|-----------|-----------|---------|-------------|--------------|-----------||
|------3--3-|-5--5------|---------|------3--2-3-|-5-3-2--------|-----------||
|-0--0------|------5--3-|-(3)-3-5-|-0--0--------|-------3-5--3-|-(3)-3-2-2-||
q. e q. e q. e q. e + e e q q. e q. s s e e e e q. e + e e e e

verse 1
4/4 2/4 4/4 2/4
|-----------|------------|---------|-----------|------------|-----------|
|-----------|------------|---------|-----------|------------|-----------|
|------3--3-|-5--5-------|---------|------3--3-|-5--5-------|-----------|
|-0--0------|------5-5-3-|-(3)-3-5-|-0--0------|------5-5-3-|-(3)-3-2-2-|
q. e q. e q. e q e e + e e q q. e q. e q. e q e e + e e e e

4/4 2/4 4/4
|-------------|--------------|-----------|-------------|-----------------|
|-------------|--------------|-----------|-------------|-----------------|
|------3--2-3-|-5-3-2--------|-----------|------3--2-3-|-5-3-2-----------|
|-0--0--------|-------3-5--3-|-(3)-3-2-2-|-0--0--------|-------3-5-5-5-3-|
q. e q. s s e e e e q. e + e e e e q. e q. s s e e e e e e e e +

2/4 4/4 2/4
|-----------|-----------------|-----------------|---------|
|-----------|-----------------|-----------------|---------|
|-----------|-----2-2-----3-3-|-----5-5---------|---------|
|-(3)-3-2-2-|-0-0-----0-0-----|-0-0-----5-5-5-3-|-3-3-5-2-|
+ e e e e e e e e e e e e e e e e e e e e e e e e
4/4 2/4
|-----------------|-----------------|---------||
|-----------------|-----------------|---------||
|-----2-2-----3-3-|-----5-5---------|---------||
|-0-0-----0-0-----|-0-0-----5-5-5-3-|-3-3-5-2-||
e e e e e e e e e e e e e e e e e e e e

chorus
4/4
|---------------------------|-----------------------|
|---------------------------|-----0h2p0-------------|
|---------------3\2-----3\2-|-(2)-------3-2---------|
|-0-x-x-3\2-x-x-----x-x-----|---------------5-3-2-3-|
q s s s+s s s s+s s s s+s + h s s s s s s s s s
{ 3 }

|---------------------------|-----------------------------|
|---------------------------|-----------------------------|
|---------------3\2-----3\2-|-(2)-2-2-2-2-2-2-3-2---------|
|-0-x-x-3\2-x-x-----x-x-----|---------------------3---x-1-|
q s s s+s s s s+s s s s+s + e s s s s s s s s e+s s e

|---------------------------|-----------------------|
|---------------------------|-----0h2p0-------------|
|---------------3\2-----3\2-|-(2)-------3-2---------|
|-0-x-x-3\2-x-x-----x-x-----|---------------5-3-2-3-|
q s s s+s s s s+s s s s+s + h s s s s s s s s s
{ 3 }

|-------------------------|------|-----||
|-------------------------|------|-----||
|---------------3\2-----3-|-2----|-2---||
|-0-x-x-3\2-x-x-----x-x---|------|-----||
q s s s+s s s s+s s s e w w

4/4 2/4 4/4 2/4
|-----------|-----------|---------|-----------|-----------|---------|
|-----------|-----------|---------|-----------|-----------|---------|
|------3--3-|-5--5------|---------|------3--3-|-5--5------|---------|
|-0--0------|------5--3-|-(3)-3-5-|-0--0------|------5--3-|-(3)-3-2-|
q. e q. e q. e q. e + e e q q. e q. e q. e q. e + e e q

4/4 2/4 4/4 2/4
|-----------|-----------|---------|-----------|--------------|-----------||
|-----------|-----------|---------|-----------|--------------|-----------||
|------3--3-|-5--5------|---------|------3--3-|-5--5---------|-----------||
|-0--0------|------5--3-|-(3)-3-5-|-0--0------|------5-5-5-3-|-(3)-3-2-2-||
q. e q. e q. e q. e + e e q q. e q. e q. e e e e e + e e e e

verse 2
4/4 2/4 4/4 2/4
|-----------|------------|---------|-----------|------------|-----------|
|-----------|------------|---------|-----------|------------|-----------|
|------3--3-|-5--5-------|---------|------3--3-|-5--5-------|-----------|
|-0--0------|------5-5-3-|-(3)-3-5-|-0--0------|------5-5-3-|-(3)-3-2-2-|
q. e q. e q. e q e e + e e q q. e q. e q. e q e e + e e e e

4/4 2/4 4/4
|-------------|--------------|-----------|-------------|-----------------|
|-------------|--------------|-----------|-------------|-----------------|
|------3--2-3-|-5-3-2--------|-----------|------3--2-3-|-5-3-2-----------|
|-0--0--------|-------3-5--3-|-(3)-3-2-2-|-0--0--------|-------3-5-5-5-3-|
q. e q. s s e e e e q. e + e e e e q. e q. s s e e e e e e e e +

2/4 4/4 2/4
|-----------|-----------------|-----------------|---------|
|-----------|-----------------|-----------------|---------|
|-----------|-----2-2-----3-3-|-----5-5---------|---------|
|-(3)-3-2-2-|-0-0-----0-0-----|-0-0-----5-5-5-3-|-3-3-5-2-|
+ e e e e e e e e e e e e e e e e e e e e e e e e

4/4 2/4
|-----------------|-----------------|---------||
|-----------------|-----------------|---------||
|-----2-2-----3-3-|-----5-5---------|---------||
|-0-0-----0-0-----|-0-0-----5-5-5-3-|-3-3-5-2-||
e e e e e e e e e e e e e e e e e e e e
chorus
4/4
|---------------------------|-----------------------|
|---------------------------|-----0h2p0-------------|
|---------------3\2-----3\2-|-(2)-------3-2---------|
|-0-x-x-3\2-x-x-----x-x-----|---------------5-3-2-3-|
q s s s+s s s s+s s s s+s + h s s s s s s s s s
{ 3 }

|---------------------------|-----------------------------|
|---------------------------|-----------------------------|
|---------------3\2-----3\2-|-(2)-2-2-2-2-2-2-3-2---------|
|-0-x-x-3\2-x-x-----x-x-----|---------------------3---x-1-|
q s s s+s s s s+s s s s+s + e s s s s s s s s e+s s e

|---------------------------|-----------------------|
|---------------------------|-----0h2p0-------------|
|---------------3\2-----3\2-|-(2)-------3-2---------|
|-0-x-x-3\2-x-x-----x-x-----|---------------5-3-2-3-|
q s s s+s s s s+s s s s+s + h s s s s s s s s s
{ 3 }
2/4
|-------------------------|------|-------------------|
|-------------------------|------|-0h2p0-------------|
|---------------3\2-----3-|-2----|-------3-2---------|
|-0-x-x-3\2-x-x-----x-x---|------|-----------5-3-2-3-|
q s s s+s s s s+s s s e w s s s s s s s s s
{ 3 }
4/4 2/4
|-------------------------|------|-------------------||
|-------------------------|------|-0h2p0-------------||
|---------------3\2-----3-|-2----|-------3-2---------||
|-0-x-x-3\2-x-x-----x-x---|------|-----------5-3-2-3-||
q s s s+s s s s+s s s e w s s s s s s s s s
{ 3 }
double time
|----|------|------|------|
|----|------|------|------|
|----|------|------|------|
|-0--|-(0)--|-(0)--|-(0)--|
w + w + w + w
^
this is what the transcription says,
but there's a lot more going on.
|-----------------|-----------------|-----------------|-----------------|
|-----------------|-----------------|-----------------|-----------------|
|-----------------|-----------------|-----------------|-----------------|
|-0-0-0-0-0-0-0-0-|-0-0-0-0-0-0-0-0-|-0-0-0-0-0-0-0-0-|-0-0-0-0-0-0-0-0-|
e e e e e e e e e e e e e e e e e e e e e e e e e e e e e e e e

|-----------------|-----------------|-----------------|-----------------|
|-----------------|-----------------|-----------------|-----------------|
|-----------------|-----------------|-----------------|-----------------|
|-5h7---5h7-0-0-0-|-0-0-0-0-0-0-0-0-|-5h6---5h6---5h6-|---5h7-0-0-0-0-0-|
e e E e e e e e e e e e e e e e e e E e e E e e E e e e e e e e

|-----------------|-----------------|-----------------|-----------------|
|-----------------|-----------------|-----------------|-----------------|
|-----------------|-----------------|-----------------|-----------------|
|-5h6---5h6-0-0-0-|-0-0-0-0-0-0-0-0-|-5h6---5h6---5h6-|---5h7-0-0-0-0-0-|
e e E e e e e e e e e e e e e e e e E e e E e e E e e e e e e e

|-----------------|-----------------|-----------------|-----------------|
|-----------------|-----------------|-----------------|-----------------|
|-----------------|-----------------|-----------------|-----------------|
|-5h6---5h6-0-0-0-|-0-0-0-0-0-0-0-0-|-5h6---5h6---5h6-|---5h7-0-0-0-0-0-|
e e E e e e e e e e e e e e e e e e E e e E e e E e e e e e e e

|-----------------|-----------------|-----------------|-----------------||
|-----------------|-----------------|-----------------|-----------------||
|-----------------|-----------------|-----------------|-----------------||
|-5h6---5h6-0-0-0-|-0-0-0-0-0-0-0-0-|-5h6---5h6---5h6-|---5h7-0-0-0-0-0-||
e e E e e e e e e e e e e e e e e e E e e E e e E e e e e e e e

Tempo I
bridge 2x
||-----------|----------|----------|------------------||
||o----------|----------|----------|-----------------o||
||o-0-2------|-0-2-5-5--|-0-2------|-0-2-3-3-3-2-2-2-o||
||------0-0--|----------|-----1-1--|------------------||
s e s h. s e s h. s e s h. s e s q s e s q

|------------------------------||
|------------------------------||
|------------------------------||
|-0-0-0-0-0-0-0-0-0-0-0-0-12\--||
s s s s s s s s s s s s q

double time
guitar solo
|-----------------|-----------------|-----------------|-----------------|
|-----------------|-----------------|-----------------|-----------------|
|-----------------|-----------------|-----------------|-----------------|
|-5h6---5h6-0-0-0-|-0-0-0-0-0-0-0-0-|-5h6---5h6---5h6-|---5h7-0-0-0-0-0-|
e e E e e e e e e e e e e e e e e e E e e E e e E e e e e e e e

|-----------------|-----------------|-----------------|-----------------|
|-----------------|-----------------|-----------------|-----------------|
|-----------------|-----------------|-----------------|-----------------|
|-5h6---5h6-0-0-0-|-0-0-0-0-0-0-0-0-|-5h6---5h6---5h6-|---5h7-0-0-0-0-0-|
e e E e e e e e e e e e e e e e e e E e e E e e E e e e e e e e

|-----------------|-----------------|-----------------|-----------------|
|-----------------|-----------------|-----------------|-----------------|
|-----------------|-----------------|-----------------|-----------------|
|-5h6---5h6-0-0-0-|-0-0-0-0-0-0-0-0-|-5h6---5h6---5h6-|---5h7-0-0-0-0-0-|
e e E e e e e e e e e e e e e e e e E e e E e e E e e e e e e e
|-----------------|-----------------|-----------------|-----------------||
|-----------------|-----------------|-----------------|-----------------||
|-----------------|-----------------|-----------------|-----------------||
|-5h6---5h6-0-0-0-|-0-0-0-0-0-0-0-0-|-5h6---5h6---5h6-|---5h7-0-0-0-0-0-||
e e E e e e e e e e e e e e e e e e E e e E e e E e e e e e e e

Tempo I
|---------------|---------------||
|---------------|---------------||
|-0-2-----------|-0-2-5-5-5-----||
|-----0-0-0-----|---------------||
s e s q e E Q s e s q e E Q

6x
||-----------|----------|----------|------------------||
||o----------|----------|----------|-----------------o||
||o-0-2------|-0-2-5-5--|-0-2------|-0-2-3-3-3-2-2-2-o||
||------0-0--|----------|-----1-1--|------------------||
s e s h. s e s h. s e s h. s e s q s e s q
There are a lot of breaks and extra notes here, however the
transcription doesn't mention them and I'm not good enough to
transcribe them myself.

|-----------|-----------|-----------|-----------------|
|-----------|-----------|-----------|-----------------|
|-0-2-------|-0-2-5-5---|-0-2-------|-0-2-3-3-3-2-2-2-|
|-----0-0---|-----------|-----1-1---|-----------------|
s e s h Q s e s h Q s e s h Q s e s q s e s q

|-----------------|-----------------|-----------------|-----------------|
|-----------------|-----------------|-----------------|-----------------|
|-0-2-------------|-0-2-5-5-5-5-5-5-|-0-2-------------|-0-2-3-3-2-2-2-2-|
|-----0-0-0-0-0-0-|-----------------|-----1-1-1-1-1-1-|-----------------|
s e s q e e e q s e s q e e e q s e s q e e e q s e s q e e e q
{ 3 } { 3 } { 3 } { 3 }

|-----------------|---------|----|----------|---------||
|-----------------|---------|----|----------|---------||
|-2-2-2-2-2-2-2-2-|-2-0-----|----|----------|-7\------||
|-----------------|-----3-2-|-0--|-(0)------|---------||
e e e q e e e q q q q q w + (w) q Q H
{ 3 } { 3 } /

 

Комментариев пока еще нет.

Добавить комментарий!

Рекомендуем

  • Опрос
    Вы играете на гитаре?
    Да, очень хорошо
    Да, но есть чему поучиться
    Да, неплохо
    Пока не очень
    Нет