26мая

Leper Messiah

|
Комментарии (0)
Leper Messiah
written by Hetfield and Ulrich
as performed on 
tab by Dorthy St.Claire; mail

Intro
G--|-------------------|-----------------|-------------------|
D--|-------------------|-----------------|-------------------|
A--|-------------------|-----------------|-------------------|
E--|--0-0-3-0-0-3-5----|--0-0-3-0-0-3----|--0-0-3-0-0-3-1----|

G--|--------------------------------------|
D--|--------------------------------------|
A--|-------------------------2------------|
E--|--0-0-3-0-0-5--3-2--5-3-----5-3-2-1---|

(Fig. 1)                                                   (end fig. 1)
G--|-----------------------------|------------------------------------|
D--|-----------------------------|------------------------------------|
A--|-----------3-----------------|--------------3---------------------|
E--|--0--2--2-----2--2--2--3--2--|--0--2--0--2-----2--2--2--3--2--2---|

                                       x3
G--|------------------------------------|--------------------------------|
D--|------------------------------------|--------------------------------|
A--|------------------------------------|--------------------------------|
E--|--0-0-----0-0-----0-0--3-3-2-2------|--0-0-----0-0--2-0--3--2-0--5---|

G--|---------------------------------------------|
D--|---------------------------------------------|
A--|---------------------------------------------|
E--|--0-0--0-0--0-0--0-0--0-0--0--0-0--0-0--2/3--|

G--|------------------------------------|
D--|------------------------------------|
A--|------------------------------------|
E--|--0-0--0-0--0-0--0-0-3-0--3--3-0--5-|

Verse (x2)
(Fig. 2)
G--|-----------------------------------------------|
D--|-----------------------------------------------|
A--|-----------------------------------------------|
E--|--0-0--0--0--0-0--0--0--0-0--0--0-0--0-0--2/3--|

                                   (end fig. 2)   x4
G--|-----------------------------------------------|
D--|-----------------------------------------------|
A--|-----------------------------------------------|
E--|--2-2--2--2--2-2--2--2--2-2--2--2-2--2-2--2/3--|

Chorus
                                                   x2
G--|--------||----------------------------------------|
D--|--------||----------------------------------------|
A--|--rest--||----------------------------------------|
E--|--------||--/7-0-0--7\6--0-0--6\5--0-0--5\4--0-0--|
    You will    Time for lust, time for lie
                Time to kiss your life goodbye
                                   
G--|-----------------------------------------------------|
D--|-----------------------------------------------------|
A--|-----------------------------------------------------|
E--|--/7--0--0-0--7\6--0--0-0--6\5--0--0-0--5\4--0--0-0--|
      Send me money, send me green, heaven you will see
      Make a contribution and you'll get a better seat
                   x3
G--|----------------|-------------|
D--|----------------|-------------|
A--|--6\5-----------|--6\5--------|
E--|-------0-0-0-0--|-------0--0--|
    Bow... (3rd time)

Verse (x2)
(fig. 3)
G--|-----------------------------|-----------------------------------|
D--|-----------------------------|-----------------------------------|
A--|-----------3-----------------|--------------3--------------------|
E--|--0--2--2-----2--2--2--3--2--|--0--2--0--2-----2--2--2--3--2--2--|

G--|-----------------------------|
D--|-----------------------------|
A--|-----------3-----------------|
E--|--0--2--2-----2--2--2--3--2--|
                                       (end fig. 3)
G--|-----------------------------------------------|
D--|-----------------------------------------------|
A--|--------------------------------2--------------|
E--|--0--0--3--0--0--5--3--2--5--3-----5--3--2--1--|

                         x3
G--|-----||---------------|
D--|-----||---------------|
A--|-----||---------------|
E--|--0--||--3--2--1---0--| let ring 3rd time

Interlude 1
play this, but slowly, then do it backwards
G--|---------------|
D--|---------------|
A--|---------------|
E--|--3--2--1---0--|

(fig. 4)                            
                  x4              x2
G--||--------------||--------------|
D--||--------------||--------------|
A--||--------------||--------------|
E--||--0-0-0-0--0--||--1-1-1-1--1--|
     Witchery... (2nd time)

                                     (end fig. 4)
                              x2
|---------------|--------------||--------------||
|---------------|--------------||--------------||
|---------------|--------------||--------------||
|---3-3-3-3--3--|--5-5-5-5--5--||--3--3--5--5--||
                                  play 2nd time

Guitar solo (x2)
(fig. 5)                                              (end fig. 5)
             x8          x4                     x2
G--|----------||----------||----------|----------||--------------|
D--|----------||----------||----------|----------||--------------|
A--|----------||----------||----------|----------||--------------|
E--|--0--0-0--||--1--1-1--||--3--3-3--|--5--5-5--||--3--3--5--5--|
                                                     play 2nd time
Interlude 2
same as interlude 1
             x8         x4         x2         x2              x2
G--|----------|----------|----------|----------||--------------|
D--|----------|----------|----------|----------||--------------|
A--|----------|----------|----------|----------||-----6--5--4--|
E--|--5--5-5--|--3--3-3--|--2--2-2--|--1--1-1--||--0-----------|
                                                 time for lust...
                 x3             x2             x3
G--|--------------|--------------|--------------|
D--|--------------|--------------|--------------|
A--|--------------|-----6--5--4--|--------------|
E--|--0-0-0-0--0--|--0-----------|--3-3-3-3--3--|
                  send me money...

G--|----------------------------------------------|
D--|----------------------------------------------|
A--|-------------6----------5----------4----------|
E--|--0--0--0-0-----0--0-0-----0--0-0-----0--0-0--|
      Lie, lie, lie...

G--|--------------|--------------|-----|--------|
D--|--------------|--------------|-----|--------|
A--|--------------|--------------|-----|--rest--|
E--|--3--3--3--3--|--3--3--3--3--|--3--|--------|
                     Slow down

G--|-----------------------------|
D--|-----------------------------|
A--|--------------2--------------|
E--|--3--2--5--3-----5--3--2--1--|

Play fig. 3 (x1)
Ending:
G--|-----------------------|
D--|-----------------------|
A--|-----------------------|
E--|--0-----1--0--0--0--0--|

 

Комментариев пока еще нет.

Добавить комментарий!

Рекомендуем

  • Опрос
    Сколько часов в день вы слушаете музыку?
    1-3 часа
    3-5 часа
    более 5 часов
    сутки напролет
    я не слушаю музыку