26мая

Eye of the Beholder

|
Комментарии (0)
EYE OF THE BEHOLDER       -      Bass     METALLICA             
                                             
     INTRO
-----------------------------!
-----------------------------!
-----------------------------!14X's
0--0--0-0-0--0-0-0-0-0-0-0-0-!
------------------------------------------------------------------!
------------------------------------------------------------------!
------------------------------------------------------------------!3X's
3---3---3-3-3---2-2-2-2--2-2-2-2---2---2---2-2-2--0-0-0-0-0-0-0-0-!
-----------------------------!--------------!
-----------------------------!--------------!
-----------------------------!--------------!
3---3---333---2-2-2-2-2-2-2-2!2---2---2-2-2-!
!--------------------------!
!--------------------------!
!-------7----------7-----7-!7X's
!0-0-0-----0--0--0---0-0---!
-------------------------------------!
--------------------8H9P8H9----------!
----------7------------------7H8P7H8-!2X's
0-0-0-----------0--------------------!
!-------------------!-----------------------!
!-------------------!-----------------------!
!-------------------!-----------------------!
!--6H7P6H7--2H3P2H3-!----0---------0--------!
1,3 VERSES
-----------------------------!----------------------------!
-----------------------------!----------------------------!
-----------------------------!----------------------------!4X's
0-0-0-0-0-0-0--0-3--3--3-3-3-!2-2-2-2---2-2-2-2--2--2-2-2-!
-------------------------!--------------------------!
-------------------------!--------------------------!
-------------------------!--------------------------!
0-0-0-0-0-0-0-0-0-0-0-0-0!0-0-0-0-0-0-0-0-0-0-0-0-0-!
2,4,5 VERSES
----------------------------!-----------------------------!
----------------------------!-----------------------------!
----------------------------!-----------------------------!3X's
0-0-0-0-0-0-0-0-3--3--3-3-3-!2-2-2-2--2-2-2-2-2--2--2-2-2-!
------------------------------!----------------!
------------------------------!----------------!
------------------------------!----------------!
0-0-0-0-0-0-0-0-3---3---3-3-3-!-2--------------!
PRE-CHORUS
---------------------------!
---------------------------!
---7---7---8---5---5-----6-!5X's
-0---0---0---0---0---------!

-----------------------!-------------------!-------------------!
-----------------------!-------------------!-------------------!
7------------7---------!-------------------!-------------------!
0---0--0--0--0---------!-2/3----0-0-0-0----!-2/3----3-3-3-3----!
--------------!----------------------------!-----------------!
--------------!----------------------------!-----------------!
--------------!----------------------------!-----------------!
-6-6-6--3-3-3-!-5-5-5--3-3-3--2-2-2--3-3-3-!-2----3--2----3--!       
                  CHORUS
------------------!       !--------------------! 
------------------!       !--------------------!
------------------!2X's   !------4-------5-----!
-2-----3--2----3--!       !-2-------2-3-----3--!
------------------!       !--------------------!
------------------!       !--------------------!
------------------!2X's   !-----4---------5----!
-2-----3--2----3--!       !-2-------2-3-----3--!
------------------!       !--------------------!
------------------!       !--------------------!
------------------!2X's   !-----4--------7-----!    
2------3--2----3--!       !-2-------2-5-----0--!
--------------------!-------------------------!
--------------------!-------------------------!
-7------5--7--------!--------7-------7-----7--!3X's
-----------0-----0--!--0-0-0---0-0-0---0-0----!
-----------------------------!-------------------!
------------8H9P8H9----------!-------------------!
-------7------------7H8P7H8--!-------------------!
-0-0-0---0-------------------!-6H7P6H7--2H3P2H3--! 
-----------------!--------------------!
-------------5---!--------------------!
-----7-----------!-------7-----2-2----!2X's
-0-0---0-0-3---0-!-(0)-0---0-0-----3--!
------------------!------------------------!-------------------!
-------------5----!------------------------!-------------3-----!
-----7------------!--------7----2--5-----5-!-----7-------------!
-0-0---0-0-3---0--!-(0)-0-----0-------3----!-0-0---0-0-1----0--!
-----------------------!-----------------!-----------------------!
-----------------------!-----4---5-------!-----------------------!
-------7---2--5-----5--!-2-2---2---3-0-2-!-(2)-2-2-0-2-5---5---5-!
-(0)-0---0-------3-----!-----------------!---------------3---3---!
                             
-----------------------!-------------------!
-------4-----5---------!-------------------!
---2-2----2----3--0-2--!-(2)-2-2-0-2-5---5-!
-----------------------!---------------3---!
                   ............3X's........................
------------------!--------------------!-------------------!
------7---8-------!--------------------!-----7---8---------!
--5-5---5---6-3-5-!-(5)-5-5-0-0-3----3-!-5-5---5----6-3-5--!
------------------!----------------1---!-------------------!
-----------------!-------------------!
-----------------!-----7---8---------!
---------0-3---3-!-5-5---5----6-3----!2X's
-5-5-5-5-----1---!----------------5--!
------------------------!
------------------------!
-----5-5-0-0-3---3---3--!
-(5)-----------1---1----!
----------------------------!
----------------------------!
----------------------------!2X's
-7-7-7--5-5-5--4-4-4--5-5-5-!
-----------------------------!-------------------------!
-----------------------------!--7--7--5--5--4--4-------!
-5-5-5--3-3-3--2-2-2--3-3-3--!--5--5--3--3--2--2-------!
-----------------------------!--------------------3-3--!
---------------!       !---------7P6P4H6P4H6P4------! 
---------------!       !-------------------------7--!
---------------!7X's   !----------------------------!
-2----3-2---3--!       !-2-2-2-2--------------------!

CODA:!--------------------!      !-------------------!
     !--------------------!      !-------------------!
     !------4-------7-----!      !--7----5--7--------!
     !--2------2--5----0--!      !----------0-----0--!
--------------------------------------!-------------------!
--------------------------------------!-------------------!
---7-----7-----8-----5-----5-------6--!-7--------------7--!
-0----0-----0-----0-----0-------------!-0--------0-0-0-0--!
-----------------------------------!       !--------------!
-----------------------------------!       !--------------!
---7-----7-----8-----5-----5----6--!2X's   !-7---------7--!
0-----0-----0-----0-----0----------!       !-0---0-0-0-0--!
--------------------!---------------------------------!-----------!
--------------------!---------------------------------!-----------!
--7-----------------!---------------------------------!-7---------!
--0-----------------!-2/3------0-0-0-0-0-0-0-0-0-0-0--!-0---------!
        H= HAMMER-ON  
        P= PULL-OFF
Комментариев пока еще нет.

Добавить комментарий!

Рекомендуем

  • Опрос
    Сколько часов в день вы слушаете музыку?
    1-3 часа
    3-5 часа
    более 5 часов
    сутки напролет
    я не слушаю музыку