26мая

Enter Sandman

|
Комментарии (0)
Enter Sandman
written by Hetfield, Hammett and Ulrich
as performed on Metallica
tab by Dorthy St.Claire; mail
http://www.geocities.com/~dorfunkle

Wait through 8 measures of guitar intro, then start :
G|-------------------------|-------------------------|-------------------------|
D|-------------------------|-------------------------|-------------------------|
A|-------------------------|-------------------------|-------------------------|
E|--0--0--0--0--0--0--0--0-|--0--0--0--0--0--0--0--0-|--0--0--0--0--0--0--0--0-|

G|-------------------------|---------------------------|--------------------------|
D|-------------------------|---------------------------|--------------------------|
A|-------------------------|---------------------------|--------------------------|
E|--0--0--0--0--0--0--0--0-|--0--0--0--0--0--0--0--0/1-|--0--0--0--0--0--0--0--0/1|

G|---------------------------|-------------------------|-------------------------|
D|---------------------------|-------------------------|-------------------------|
A|---------------------------|-------------------------|-------------------------|
E|--0--0--0--0--0--0--0--0/1-|--0--0--0--1--0--0--0--1-|--0--0--0--0--0--0--0--1-|

G|----------------------|-------------------------|--------------------| 
D|----------------------|-------------------------|--------------------|
A|----------------------|-------------------------|--------------------|
E|--0--0--0--0--0--0--1-|--0--0--0--0--0--0--0--1-|--0--0--0--5---5--1-|

G|---------------------------|---------------------------|-------------------------|
D|---------------------------|---------------------------|-------------------------|
A|---------------------------|---------------------------|-------------------------|
E|--0--0--0--0--0--0--0--0/1-|--0--0--0--0--0--0--0--0/1-|--0--0--0--0--0--0--0--2-|

G|-------------------------|-------------------------|-------------------------|
D|-------------------------|-------------------------|-------------------------|
A|-------------------------|-------------------------|-------------------------|
E|--0--0--0--0--0--0--0--1-|--0--0--0--0--0--0--0--1-|--0--0--0--0--0--0--0--1-|

G|-------------------------|---------------------------|----------------------|
D|-------------------------|---------------------------|----------------------|
A|-------------------------|---------------------------|----------------------|
E|--0--0--0--0--0--0--0--0-|--(0)--0--0--6--5--5--0--0-|--0--0--6--5--5--0--0-|

G|-------------------|----------------------|---------------------------|
D|-------------------|----------------------|---------------------------|
A|-------------------|----------------------|---------------------------|
E|--0--0--6--5--0--3-|--0--2--0--2--3--2--0-|--(0)--0--0--6--5--5--0--0-|

G|----------------------|-------------------|----------------------|
D|----------------------|-------------------|----------------------|
A|----------------------|-------------------|----------------------|
E|--0--0--6--5--5--0--0-|--0--6--5--5--0--3-|--0--2--0--2--3--2--0-|

   Verses 1 and 2 
G|---------------------------|-------------------------|-------------------------|
D|---------------------------|-------------------------|-------------------------|
A|---------------------------|-------------------------|-------------------------|
E|--(0)--0--0--0--0--0--0--1-|--0--0--0--0--0--0--0--1-|--0--0--0--0--0--0--0--3-|

G|-------------------|---------------------------|------------------------|
D|-------------------|---------------------------|------------------------|
A|-------------------|---------------------------|------------------------|
E|--0--2--2--3--2--0-|--(0)--0--0--0--0--0--0--1-|--0--0--0--0--0--0--0--1|

G|-------------------------|----------------------|
D|-------------------------|----------------------|
A|-------------------------|----------------------|
E|--0--0--0--0--0--0--0--3-|--0--2--0--2--3--2--2-|

    Pre-chorus (Sleep with one eye open...)
G|------------|----------|------------|----------------------|
D|------------|----------|------------|----------------------|
A|------2-----|---2------|---2--------|----------------------|
E|--(2)-----2-|--------2-|----------2-|--2--2--2--2--2--0--1-|

   Chorus
G|---------------------------|-------------------------|------------------------------|
D|---------------------------|-------------------------|------------------------------|
A|------------3--2--2--2-----|---------3--2--2--2------|------------3--2--2--2--------|
E|--2--2--2----------------2-|--2--2-----------------2-|--2--2--2------------------0--|

G|--------------------------|------------------------|-------------------------|
D|--------------------------|------------------------|-------------------------|
A|-------5--7--7--5---------|---------3--2--2--2-----|-------------------------|
E|--5/7----------------7--5-|--2--2----------------0-|--0--0--2--0--4--0--5--0-|

G|------------------|---------------------------|-------------------------|
D|------------------|---------------------------|-------------------------|
A|------------------|------------3--2--2--2-----|---------3--2--2--2------|
E|--3-------------0-|--2--2--2----------------2-|--2--2-----------------2-|

G|------------------------------|--------------------------|------------------------|
D|------------------------------|--------------------------|------------------------|
A|------------3--2--2--2--------|-------5--7--7--5---------|---------3--2--2--2-----|
E|--2--2--2------------------0--|--5/7----------------7--5-|--2--2----------------0-|

G|------------------------|-------------------------|------------------|
D|------------------------|-------------------------|------------------|
A|---------3--2--2--2-----|-------------------------|------------------|
E|--2--2----------------0-|--0--0--2--0--4--0--5--0-|--3-------------0-|

G|-----------------------------|
D|-----------------------------|
A|-----------------7--7--7-----|
E|--(0)--0--0--0-------------0-|

    Guitar Solo
G|---------------------------|----------------------|----------------------|
D|---------------------------|----------------------|----------------------|
A|---------------------------|----------------------|----------------------|
E|--(0)--0--0--6--5--5--0--0-|--0--0--6--5--5--0--0-|--0--0--6--5--5--0--3-|

G|----------------------|---------------------------|----------------------|
D|----------------------|---------------------------|----------------------|
A|----------------------|---------------------------|----------------------|
E|--0--2--0--2--3--2--0-|--(0)--0--0--6--5--5--0--0-|--0--0--6--5--5--0--0-|

G|----------------------|---------------------------|--------------------|
D|----------------------|---------------------------|--------------------|
A|----------------------|---------------------------|--2-----------------|
E|--0--0--6--5--5--0--3-|--(3)--0--2--0--2--3--2--2-|------------------2-|

G|-----------------|---------------------|------------------|
D|-----------------|---------------------|------------------|
A|---2-------------|---2-----------------|------------------|
E|---------------2-|-------------------2-|-------0--0--0--1-|

G|---------------------------|----------------------------|---------------------------|
D|---------------------------|----------------------------|---------------------------|
A|------------3--2--2--2-----|------------3--2--2--2------|------------3--2--2--2-----|
E|--2--2--2----------------2-|--2--2--2-----------------2-|--2--2--2----------------0-|

G|-----------------------|---------------------------|---------------------|
D|-----------------------|---------------------------|---------------------|
A|-----/5--5-------------|------------3--2--2--2-----|----------------0----|
E|--0---------7--6--5--3-|--2--2--2----------------0-|--2--0--3--0-------0-|

G|------------------|-------------------------|-------------------------|
D|------------------|-------------------------|-------------------------|
A|------------------|-------------------------|-------------------------|
E|--0---(rest)------|--0--0--0--0--0--0--0--1-|--0--0--0--0--0--0--0--1-|

G|-------------------------|
D|-------------------------|
A|-------------------------|
E|--0--0--0--0--0--0--0--1-|

   Interlude (Now I lay me down to sleep...)
G|-------------------------|-------------------------|-------------------------|
D|-------------------------|-------------------------|-------------------------|
A|-------------------------|-------------------------|-------------------------|
E|--0--0--0--0--0--0--0--1-|--0--0--0--0--0--0--0--1-|--0--0--0--0--0--0--0--1-|

G|-------------------------|-------------------------|-------------------------|
D|-------------------------|-------------------------|-------------------------|
A|-------------------------|-------------------------|-------------------------|
E|--0--0--0--0--0--0--0--1-|--0--0--0--0--0--0--0--1-|--0--0--0--0--0--0--0--1-|

G|-------------------------|-------------------------|-------------------------|
D|-------------------------|-------------------------|-------------------------|
A|-------------------------|-------------------------|-------------------------|
E|--0--0--0--0--0--0--0--1-|--0--0--0--0--0--0--0--2-|--2--2--2--2--2--2--2--3-|

G|-------------------------|-------------------------|-------------------------|
D|-------------------------|-------------------------|-------------------------|
A|-------------------------|-------------------------|-------------------------|
E|--2--2--2--2--2--2--2--3-|--2--2--2--2--2--2--2--3-|--2--2--2--2--2--2--2--3-|

G|-------------------------|-------------------------|-------------------------|
D|-------------------------|-------------------------|-------------------------|
A|-------------------------|-------------------------|-------------------------|
E|--2--2--2--2--2--2--2--2-|--2--2--2--2--2--2--2--2-|--2--2--2--2--2--0--0--1-|

   Third Chorus
G|---------------------------|---------------------------|---------------------------|
D|---------------------------|---------------------------|---------------------------|
A|------------3--2--2--2-----|------------3--2--2--2-----|------------3--2--2--2-----|
E|--2--2--2----------------2-|--2--2--2----------------2-|--2--2--2----------------0-|

G|----------------------------|-------------------------|----------------------|
D|----------------------------|-------------------------|----------------------|
A|--------7--5----------7-----|------------3--2---2-----|----------------------|
E|--0--0---------7--7------5\-|--2--2--2--------------0-|--0--0--0--0--0--0--1-|

G|------------------------|----------------------------|---------------------|
D|------------------------|----------------------------|---------------------|
A|---------3--2--2--2-----|-------------3--2--2--2-----|-------------3--2----|
E|--2--2----------------2-|--2--2--2-----------------2-|--2--2--2----------0-|

G|----------------------|------------------------|-------------------|----------------------|
D|----------------------|------------------------|-------------------|----------------------|
A|-------5--7--5--------|------------3--2--2-----|-------------------|----------------------|
E|--5/7------------7--5-|--2--2--2-------------0-|--0--2--0--3--5--0-|--0-----------------0-|

   Outro (Evil laughter etc.)
G|---------------|-----------------------|----------------------|-------------------------|
D|---------------|-----------------------|----------------------|-------------------------|
A|---------------|-----------------------|----------------------|-------------------------|
E|--0------------|---------------------0-|--0--0--6--5--5--0--0-|--0--0--0--6--5--5--0--0-|

G|-------------------------|-------------------------|-------------------------|
D|-------------------------|-------------------------|-------------------------|
A|-------------------------|-------------------------|-------------------------|
E|--0--0--0--6--5--5--0--0-|--0--0--0--6--5--5--0--0-|--0--0--0--6--5--5--0--3-|

G|----------------------|-------------------------|-------------------------|
D|----------------------|-------------------------|-------------------------|
A|----------------------|-------------------------|-------------------------|
E|--0--2--0--2--3--2--0-|--0--0--0--0--0--0--0--1-|--0--0--0--0--0--0--0--1-|

G|-------------------------|-------------------------|-------------------------|
D|-------------------------|-------------------------|-------------------------|
A|-------------------------|-------------------------|-------------------------|
E|--0--0--0--0--0--0--0--1-|--0--0--0--0--0--0--0--1-|--0--0--0--0--0--0--0--1-|

G|-------------------------|-------------------------|-------------------------|
D|-------------------------|-------------------------|-------------------------|
A|-------------------------|-------------------------|-------------------------|
E|--0--0--0--0--0--0--0--1-|--0--0--0--0--0--0--0--1-|--0--0--0--0--0--0--0--1-|

                                        (repeat 4 times and fade)
G|-------------------------|-------------------------|-------------------------|
D|-------------------------|-------------------------|-------------------------|
A|-------------------------|-------------------------|-------------------------|
E|--0--0--0--0--0--0--0--0-|--0--0--0--0--0--0--0--0-|--0--0--0--0--0--0--0--0-|
Комментариев пока еще нет.

Добавить комментарий!

Рекомендуем

  • Опрос
    Где вы чаще всего слушаете радио?
    Дома
    За рулем
    На улице
    На работе (в школе, ВУЗе, колледже)
    Вообще не слушаю